Грусть моя (Александр Розенбаум)

Transcribed by Dimitri Metzler for Guitar 6 string - Open G (D-G-D-G-B-D)   .


Вступление 3 раза


первый такт и второй различаются только добавками на 3 и 4 струне
~ это легато (вторую и третью ноту извлекаем уже без щипка)
> глиссандо (скольжение с 12 лада к нулевому постепенно уменьшая давление на струну)
Am7 Em7
1-------7-7-7-7-7----5-5---3-5-7---7-7-7-7-7----5-5---3-5-7--5-5-5-5-5--3-3--5-5-5-5-5--3-3--------
2-------8-8-8-8-8----7-7---5-7-8---8-8-8-8-8----7-7---5-7-8--7-7-7-7-7--5-5--7-7-7-7-7--5-5--------
3---------------------------------------------------------------------------------------------------
4---------------------------------------------------------------------------------------------------
5---------------------------------------------------------------------------------------------------
6---------------------------------------------------------------------------------------------------
Am7 Em7
1-------7-7-7-7-7----5-5---3-5-7---7-7-7-7-7----5-5---3-5-7--5-5-5-5-5--3-3--5-5-5-5-5--3-3----------
2-------8-8-8-8-8----7-7---5-7-8---8-8-8-8-8----7-7---5-7-8--7-7-7-7-7--5-5--7-7-7-7-7--5-5----------
3------------------------------------------------------------------------------------------4~5~4------
4-----------------------------------------------------------------------------------------------5~4~5-
5-----------------------------------------------------------------------------------------------------
6-----------------------------------------------------------------------------------------------------
Am7 Em7
1-------7-7-7-7-7----5-5---3-5-7---12>0--12-10-8-7~8~7------------------------------------------------
2-------8-8-8-8-8----7-7---5-7-8----------------------------------------------------------------------
3-----------------------------------------------------------------------------------------------------
4------------------------------------------------------------------------5~4~5------------------------
5------------------------------------------------------------------------------------6~7~6-------------
6------------------------------------------------------------------------------------------------------

Am7 B7 Em7(9) Em7 Концерт, цветы, отель...
Am7 Eaug Am7 Тесно от людей - и пуст вокзал.
Am7 D7 Gmaj7 Cmaj7 И за окном вагона лес да степь,
Am7 B7 И снег, что я дарил твоим глазам.

Никто, никак, ни в чем
Переубедить нас не умел.
Два пальто и лишь один крючок -
Ты этого ждала и я хотел.

Am7 B7 Em7(9) Cmaj7 Ну, что ж ты, грусть моя, струсила в самый важный час?
Am7 B7 Em7(9) Em7 Дома качаются чайками на ветру.
Ну, что ж ты, умная, вздумала в трубку промолчать,
Когда мы вышли вдруг на последний круг?

Как быть, как жить, как петь,
Если ускользнет больной весной
Из-под ног моих земная твердь,
И если вдруг исчезнешь ты из снов.

Ну, что ж ты, грусть моя, струсила? Бог тебя хранит.
И я тебя люблю, ты - моя госпожа.
Ну, что ж ты, умная, вздумала небо уронить?
Как тяжело его будет удержать.

Прощен не будет грех,
Но перечеркнет его добро
То, что мы с тобой всю жизнь для всех
Делали всегда и будем делать впрок.

Ну, что ж ты, грусть моя, струсила? Вот моя рука.
Не бойся ничего, только вниз не смотри.
Ну, что ж ты, умная, вздумала свой разбить бокал?
Ты не жалей его, купим новых три.

Ну, что ж ты, умная, а? Я звонил вчера весь день.
Твой автоответчик сказал, что это ему надоело, и отключился.
И я обиделся на него и написал эту песню.
Когда услышишь ее, набери меня. Я дома.
Bye.
Вступление 3 раза первый такт и второй различаются только добавками на 3 и 4 струне ~ это легато (вторую и третью ноту извлекаем уже без щипка) > глиссандо (скольжение с 12 лада к нулевому постепенно уменьшая давление на струну) 1-------7-7-7-7-7----5-5---3-5-7---7-7-7-7-7----5-5---3-5-7--5-5-5-5-5--3-3--5-5-5-5-5--3-3-------- 2-------8-8-8-8-8----7-7---5-7-8---8-8-8-8-8----7-7---5-7-8--7-7-7-7-7--5-5--7-7-7-7-7--5-5-------- 3--------------------------------------------------------------------------------------------------- 4--------------------------------------------------------------------------------------------------- 5--------------------------------------------------------------------------------------------------- 6--------------------------------------------------------------------------------------------------- 1-------7-7-7-7-7----5-5---3-5-7---7-7-7-7-7----5-5---3-5-7--5-5-5-5-5--3-3--5-5-5-5-5--3-3---------- 2-------8-8-8-8-8----7-7---5-7-8---8-8-8-8-8----7-7---5-7-8--7-7-7-7-7--5-5--7-7-7-7-7--5-5---------- 3------------------------------------------------------------------------------------------4~5~4------ 4-----------------------------------------------------------------------------------------------5~4~5- 5----------------------------------------------------------------------------------------------------- 6----------------------------------------------------------------------------------------------------- 1-------7-7-7-7-7----5-5---3-5-7---12>0--12-10-8-7~8~7------------------------------------------------ 2-------8-8-8-8-8----7-7---5-7-8---------------------------------------------------------------------- 3----------------------------------------------------------------------------------------------------- 4------------------------------------------------------------------------5~4~5------------------------ 5------------------------------------------------------------------------------------6~7~6------------- 6------------------------------------------------------------------------------------------------------ Концерт, цветы, отель... Тесно от людей - и пуст вокзал. И за окном вагона лес да степь, И снег, что я дарил твоим глазам. Никто, никак, ни в чем Переубедить нас не умел. Два пальто и лишь один крючок - Ты этого ждала и я хотел. Ну, что ж ты, грусть моя, струсила в самый важный час? Дома качаются чайками на ветру. Ну, что ж ты, умная, вздумала в трубку промолчать, Когда мы вышли вдруг на последний круг? Как быть, как жить, как петь, Если ускользнет больной весной Из-под ног моих земная твердь, И если вдруг исчезнешь ты из снов. Ну, что ж ты, грусть моя, струсила? Бог тебя хранит. И я тебя люблю, ты - моя госпожа. Ну, что ж ты, умная, вздумала небо уронить? Как тяжело его будет удержать. Прощен не будет грех, Но перечеркнет его добро То, что мы с тобой всю жизнь для всех Делали всегда и будем делать впрок. Ну, что ж ты, грусть моя, струсила? Вот моя рука. Не бойся ничего, только вниз не смотри. Ну, что ж ты, умная, вздумала свой разбить бокал? Ты не жалей его, купим новых три. Ну, что ж ты, умная, а? Я звонил вчера весь день. Твой автоответчик сказал, что это ему надоело, и отключился. И я обиделся на него и написал эту песню. Когда услышишь ее, набери меня. Я дома. Bye.



Collapse/Expand
Chords

QR code
All lyrics are property and copyright of their owners. All lyrics provided for educational purposes only.

designed via ChordsVault