Школа танцев 2 (Михаил Щербаков)

Transcribed by Дмитрий Петренко for Guitar 6 string - Standard (E-A-D-G-B-E)   .


Вступление:

Проигрыш в Am (1)

(1)-----------5---8---5----------------1--------0---------0----------------
(2)-------5---------------5------------0--------0---------1----------------
(3)----5---------------------5-----4-------1----1-----2--------------------
(4)--------------------------------0---------------------------------------
(5)---------------0-----------------------------------0--------------------
(6)-----------------------0----------------0-------------------------------

Проигрыш в Am (2)

(1)-----------5---8---5----------------1-------0-----0---------------------
(2)-------5---------------5------------0-------0-----1---------------------
(3)----5---------------------5-----4-------1---1-----2---------------------
(4)--------------------------------0---------------------------------------
(5)---------------0--------------------------------------------------------
(6)-----------------------0----------------0-------------------------------
Am6(IV) E7 Я не сказал бы, что во время сна люблю
Am вдыхать миазмы разные - клопам на страх,
A7 Dm Dm/F но я дышу всем этим, поскольку сплю
E7 Am(V)* ноздрями к стенке, а она в коврах.

Проигрыш в Am (1)

Am6 E7 Пока я сплю, жильцы внизу тарелки бьют
E Am6 и друг за другом бегают по этажу.
A7 Dm Dm/F Порой во сне я думаю: зачем живут
E7 Am они? Но смысла не нахожу.

Проигрыш в Am (2)

Am6(IV) E7 Ещё во сне я думаю, что жизнь есть шум,
Ddim7/G# Am6 но минимальный, в тон чему и смерть сама:
A7 A7/C# вчера был минимум, нынче минимум,
E7 Am завтра - меньше минимума.

Проигрыш в Am (2)

Am6(IV) E7 О смерти в целом мыслю я так часто, что,
Ddim7/G# Am6 когда ко мне (опять-таки во время сна)
A7 A7/C# она является, не вопрошаю: кто
E7 Am это? Я знаю - это она.

F# Bm F# И я дрожу, когда в оранжерейной мгле
Bm с галантерейно-кремовым (а ля Париж)
B7 Em Em/G великолепием гостья шепчет мне:
F# Bm станцуем, что ли, чего дрожишь?

F# Bm F# О Красо--та! Сколь ни карала бы
Bm нас ты, всё неверный твой ловим свет.
B7 Em Хотя и помним, что, чем коралловый
Em6/G F# Bm аспид, гадины краше нет.

Проигрыш в Hm (1)

(1)-----------7---10---7--------------=3--------1-----1--------------------------
(2)-------7---------------7------------1--------1-----3--------------------------
(3)----7---------------------7-----5-------3----3-----4--------------------------
(4)------------------------------------------------------------------------------
(5)------------------------------------------------------------------------------
(6)-----------------7-----7--------0-------1-------------------------------------

Am6(IV) E7 И обмануться страшно, и перечить жаль.
Am(V)* Небось не каждый день - вообразите кадр -
A7 Dm Dm/F маячит рядом этакая флеш-рояль
E7 Am и приглашает на данс-макабр.

F# Bm F# Всем парам парочка! Хоть впрямь танцуй.
Bm Она Жорж Санд анфас, а я маркиз де Сад.
B7 Em Em/G Она воздушна, типа, как поцелуй,
F# Bm а я воздушен, как десант.

F# Bm F# Уж я станцую так, что у меня ни-ни!
Bm Я все паркеты в щепки разнесу.
B7 Em А те, которые живут внизу, они
Bm себе пускай живут внизу.

Проигрыш в Hm (1)

Cm G Поберегись! - не хуже третьего
Cm петуха кричу я - и лечу в галоп.
C7 Fm Сегодня минимум, завтра нет его,
G Cm послезавтра пускай потоп.

G Cm G Но тут она и весь её парфюм и джем,
Cm весь этот вереск, чтобы не сказать - миндаль,
C7 Fm шелками свистнув, делаются вновь ничем.
Cm И я не ведаю, как быть даль(ше).

Проигрыш в Cm

(1)-----------8---11---8----------------5--------3-----3------------------
(2)-------8----------------8------------3--------3-----5------------------
(3)----8----------------------8-----7-------5----5-----6------------------
(4)---------------------------------0-------------------------------------
(5)-----------------------------------------------------------------------
(6)----------------8-------8----------------3-----------------------------

Bm F# И просыпаюсь я, какой-то кислый вкус
Bm держа во рту. И голосом вполне чужим
B7 Em Em/G клянусь вперёд блюсти антитабачный курс,
F# Bm вегетарьянство и сплошной режим.

F# Bm F# Затем заглатываю эскалоп свиной,
Bm распространяю в комнате сигарный чад -
B7 Em и снова сплю (напившись собственной
Em6/G Bm крови: дёсны кровоточат).

Проигрыш в Hm (2):

(1)-----------7---10---7---------------3--------1---------1---------------------
(2)-------7---------------7------------1--------1---------3---------------------
(3)----7---------------------7-----5-------3----3-----4-------------------------
(4)-----------------------------------------------------------------------------
(5)-----------------------------------------------------------------------------
(6)----------------7------7--------0-------1------------------------------------


(1)-----------7---10---7---------------3--------1----3--------------------------
(2)-------7---------------7------------1--------1----5--------------------------
(3)----7---------------------7-----5-------3----3----4--------------------------
(4)-----------------------------------------------------------------------------
(5)-----------------------------------------------------------------------------
(6)----------------7------7--------0-------1------------------------------------

Окончание:

Em Em Em Bm Em Em Em Em Bm
Em Em Em Em Em Em Bm

(1)------------12-----------------------7----------------------------
(2)--------12------12---------------7-------7------------------------
(3)----12---------------12------7--------------7---------------------
(4)------------------------------------------------------------------
(5)--------------------------------------------------7---------------
(6)-0-----------0---0--------7----------7---7------------------------
Вступление: Проигрыш в Am (1) (1)-----------5---8---5----------------1--------0---------0---------------- (2)-------5---------------5------------0--------0---------1---------------- (3)----5---------------------5-----4-------1----1-----2-------------------- (4)--------------------------------0--------------------------------------- (5)---------------0-----------------------------------0-------------------- (6)-----------------------0----------------0------------------------------- Проигрыш в Am (2) (1)-----------5---8---5----------------1-------0-----0--------------------- (2)-------5---------------5------------0-------0-----1--------------------- (3)----5---------------------5-----4-------1---1-----2--------------------- (4)--------------------------------0--------------------------------------- (5)---------------0-------------------------------------------------------- (6)-----------------------0----------------0------------------------------- Я не сказал бы, что во время сна люблю вдыхать миазмы разные - клопам на страх, но я дышу всем этим, поскольку сплю ноздрями к стенке, а она в коврах. Проигрыш в Am (1) Пока я сплю, жильцы внизу тарелки бьют и друг за другом бегают по этажу. Порой во сне я думаю: зачем живут они? Но смысла не нахожу. Проигрыш в Am (2) Ещё во сне я думаю, что жизнь есть шум, но минимальный, в тон чему и смерть сама: вчера был минимум, нынче минимум, завтра - меньше минимума. Проигрыш в Am (2) О смерти в целом мыслю я так часто, что, когда ко мне (опять-таки во время сна) она является, не вопрошаю: кто это? Я знаю - это она. И я дрожу, когда в оранжерейной мгле с галантерейно-кремовым (а ля Париж) великолепием гостья шепчет мне: станцуем, что ли, чего дрожишь? О Красо--та! Сколь ни карала бы нас ты, всё неверный твой ловим свет. Хотя и помним, что, чем коралловый аспид, гадины краше нет. Проигрыш в Hm (1) (1)-----------7---10---7--------------=3--------1-----1-------------------------- (2)-------7---------------7------------1--------1-----3-------------------------- (3)----7---------------------7-----5-------3----3-----4-------------------------- (4)------------------------------------------------------------------------------ (5)------------------------------------------------------------------------------ (6)-----------------7-----7--------0-------1------------------------------------- И обмануться страшно, и перечить жаль. Небось не каждый день - вообразите кадр - маячит рядом этакая флеш-рояль и приглашает на данс-макабр. Всем парам парочка! Хоть впрямь танцуй. Она Жорж Санд анфас, а я маркиз де Сад. Она воздушна, типа, как поцелуй, а я воздушен, как десант. Уж я станцую так, что у меня ни-ни! Я все паркеты в щепки разнесу. А те, которые живут внизу, они себе пускай живут внизу. Проигрыш в Hm (1) Поберегись! - не хуже третьего петуха кричу я - и лечу в галоп. Сегодня минимум, завтра нет его, послезавтра пускай потоп. Но тут она и весь её парфюм и джем, весь этот вереск, чтобы не сказать - миндаль, шелками свистнув, делаются вновь ничем. И я не ведаю, как быть даль(ше). Проигрыш в Cm (1)-----------8---11---8----------------5--------3-----3------------------ (2)-------8----------------8------------3--------3-----5------------------ (3)----8----------------------8-----7-------5----5-----6------------------ (4)---------------------------------0------------------------------------- (5)----------------------------------------------------------------------- (6)----------------8-------8----------------3----------------------------- И просыпаюсь я, какой-то кислый вкус держа во рту. И голосом вполне чужим клянусь вперёд блюсти антитабачный курс, вегетарьянство и сплошной режим. Затем заглатываю эскалоп свиной, распространяю в комнате сигарный чад - и снова сплю (напившись собственной крови: дёсны кровоточат). Проигрыш в Hm (2): (1)-----------7---10---7---------------3--------1---------1--------------------- (2)-------7---------------7------------1--------1---------3--------------------- (3)----7---------------------7-----5-------3----3-----4------------------------- (4)----------------------------------------------------------------------------- (5)----------------------------------------------------------------------------- (6)----------------7------7--------0-------1------------------------------------ (1)-----------7---10---7---------------3--------1----3-------------------------- (2)-------7---------------7------------1--------1----5-------------------------- (3)----7---------------------7-----5-------3----3----4-------------------------- (4)----------------------------------------------------------------------------- (5)----------------------------------------------------------------------------- (6)----------------7------7--------0-------1------------------------------------ Окончание: (1)------------12-----------------------7---------------------------- (2)--------12------12---------------7-------7------------------------ (3)----12---------------12------7--------------7--------------------- (4)------------------------------------------------------------------ (5)--------------------------------------------------7--------------- (6)-0-----------0---0--------7----------7---7------------------------



Collapse/Expand
Chords

QR code
All lyrics are property and copyright of their owners. All lyrics provided for educational purposes only.

designed via ChordsVault