Ночь большого города (Д. Хмелёв)

Transcribed by Dimitri Metzler for Guitar 6 string - Standard (E-A-D-G-B-E)   .

Вступление: начало играем 3 раза, в песне 1 раз
Bm7(9) ---------0~2-----------0~2------3>5--3-2-0----------------------------------------
-------3------3---3----------0---------------------------2---------2---------------------
-----0----------0---0----------0-----------------------2---2--2-----2------------------
-----------------------------------------------------0------0---0-----0-----------------
---------------------------------------------------2---------------------0~2--0----------
--0------------------------------------------------------------------------------2-1----
Bm7(9) C7(13) Вступление: конец
--------0~2-----------0~2------3>5--3-2-0----------------------------------5----------
------3------3---3----------0-----------------------2-------------------5-----5-----5
----0----------0---0----------0-------------------2---2--2------------3----------3---
-------------------------------------------------0------0---0-------(2)---------------
-----------------------------------------------2-------------------3-------------------
--0--------------------------------------------------------------------------------------

Куплет:
Bm7(9) -----------------------------------------------------------------------------------------
-----------2----------2----------------------------------------------------------------
---------2---2---2-----2---2-----------------------------------------------------------
-------0-------0---0-----0------------------------------------------------------------
-----2-------------------------0~2--0--------------------------------------------------
-----------------------------------------2-1----------------------------------------------
Город устал от дневного шума
(Тихо кругом, будто перед боем,)

E7(9) ---------2-----------2-----------------------------------------------------------------
-------3----3----3------3------3------------------------------------------------------
-----1--------1----1-------1-----------------------------------------------------------
-----------------------------------------0~2--0----------------------------------------
----------------------------------------------------2--1---------------------------------
--0-------------------------------------------------------------------------------------
Город истоптан, разбит на части
(В двери воткнулись крючки засовы)
Em7(9) Dbm7b5 F#7(#5)* C7(13)
------------2--------------------------------------------------------------------------
---------3-----3-----------------5|--------3|----------2--------------------5---------
------0-----------0------0-------4|--------0|--------2----2---2-----------5---5-----5-
-----------------------2-------5----5----2--------0---------0---0------3---------3----
-----------------------------4--------(1)-------2--------------------(2)--------------
--0----------------------------------2------------------------------3----------------
Выключить свет не о чём не думать, счастье.

Конец куплета:
------------2--------------------------------------------------------------------------
---------3-----3-----------------5|--------3|----------2-----------------------------
------0-----------0------0-------4|--------0|--------2----2---2---------------------
----------------------2--------5----5----2--------0---------0---0--------------------
-----------------------------4--------(1)-------2--------------------2~0-----2--------
--0----------------------------------2------------------------------------2---------
(Город уснул только мы с тобою совы.)

Припев:
F#7(#5)* Bm7(9) --------0~2---------------------------------------------------------------------------------
------3-----3---3------------3-------------------2-----------------2---------------------
----0---------0---0-------0----0----2----------2---2-------------2---2-------------------
------------------------2---------2----2-----0--------0----0----0-------0------0--------------
-------------------------------------------2-----------------2----------------------------
--0------------------2-----------------------------------2------------------2----------------
Я с тобой поделюсь, расскажу, откуда радость и грусть,

F#7(#5)* Bm7(9) --------0~2---------------------------------------------------------------------------------
------3-----3---3-----------3--------------------2---------------------------------------
----0---------0---0------0----0----2-----------2---2------------------------------------
------------------------2---------2----2-----0--------0----0-------------------------------
-------------------------------------------2-------------------2~0-----2-------------------
--0------------------2-----------------------------------2-----------2---------------------
Чтобы мир наш не стал от грехов чёрств и пресен, [звучит также]

F#7(#5)* Bm7(9) --------0~2---------------------------------------------------------------------------------
------3-----3---3-----------3--------------------2-----------------2---------------------
----0---------0---0-------0----0----2----------2---2------------2---2-------------------
------------------------2---------2----2-----0--------0----0----0-------0---0--------------
--------------------------------------------2----------------2----------------------------
--0------------------2-----------------------------------2----------------2----------------
Знай, течёт свысока, разноцветная большая река, [звучит также]

Cmaj7 F#7(#5)* -----------------------------------------------------------------------------------------
-----------5-----------------------------------3-------------------------------------------
--------4-----4----------------------------0----0----0-----------------------------------
-----5-----------5-----------------------2---------2----2----------------------------------
--3----------------------3-4----------------------------------------------------------
-----------------------------2----------------------------------------------------
Не написанных чьих-то стихов, чьих-то пе се н.
(последнее слово 'песен' поём уже на проигрыше)
Проигрыш (как в начале вступление только без повтора)

Шепчет листва, нет людей, нет пробок,
В каменных джунглях роса повсюду.
Город вздохнул, не заметь, попробуй чуда.

Всё просто так не чего-то ради,
И сквозь асфальт прорастает семя,
Не оценить значит зря потратить время.

Припев.
Вступление: начало играем 3 раза, в песне 1 раз ---------0~2-----------0~2------3>5--3-2-0---------------------------------------- -------3------3---3----------0---------------------------2---------2--------------------- -----0----------0---0----------0-----------------------2---2--2-----2------------------ -----------------------------------------------------0------0---0-----0----------------- ---------------------------------------------------2---------------------0~2--0---------- --0------------------------------------------------------------------------------2-1---- Вступление: конец --------0~2-----------0~2------3>5--3-2-0----------------------------------5---------- ------3------3---3----------0-----------------------2-------------------5-----5-----5 ----0----------0---0----------0-------------------2---2--2------------3----------3--- -------------------------------------------------0------0---0-------(2)--------------- -----------------------------------------------2-------------------3------------------- --0-------------------------------------------------------------------------------------- Куплет: ----------------------------------------------------------------------------------------- -----------2----------2---------------------------------------------------------------- ---------2---2---2-----2---2----------------------------------------------------------- -------0-------0---0-----0------------------------------------------------------------ -----2-------------------------0~2--0-------------------------------------------------- -----------------------------------------2-1---------------------------------------------- Город устал от дневного шума (Тихо кругом, будто перед боем,) ---------2-----------2----------------------------------------------------------------- -------3----3----3------3------3------------------------------------------------------ -----1--------1----1-------1----------------------------------------------------------- -----------------------------------------0~2--0---------------------------------------- ----------------------------------------------------2--1--------------------------------- --0------------------------------------------------------------------------------------- Город истоптан, разбит на части (В двери воткнулись крючки засовы) ------------2-------------------------------------------------------------------------- ---------3-----3-----------------5|--------3|----------2--------------------5--------- ------0-----------0------0-------4|--------0|--------2----2---2-----------5---5-----5- -----------------------2-------5----5----2--------0---------0---0------3---------3---- -----------------------------4--------(1)-------2--------------------(2)-------------- --0----------------------------------2------------------------------3---------------- Выключить свет не о чём не думать, счастье. Конец куплета: ------------2-------------------------------------------------------------------------- ---------3-----3-----------------5|--------3|----------2----------------------------- ------0-----------0------0-------4|--------0|--------2----2---2--------------------- ----------------------2--------5----5----2--------0---------0---0-------------------- -----------------------------4--------(1)-------2--------------------2~0-----2-------- --0----------------------------------2------------------------------------2--------- (Город уснул только мы с тобою совы.) Припев: --------0~2--------------------------------------------------------------------------------- ------3-----3---3------------3-------------------2-----------------2--------------------- ----0---------0---0-------0----0----2----------2---2-------------2---2------------------- ------------------------2---------2----2-----0--------0----0----0-------0------0-------------- -------------------------------------------2-----------------2---------------------------- --0------------------2-----------------------------------2------------------2---------------- Я с тобой поделюсь, расскажу, откуда радость и грусть, --------0~2--------------------------------------------------------------------------------- ------3-----3---3-----------3--------------------2--------------------------------------- ----0---------0---0------0----0----2-----------2---2------------------------------------ ------------------------2---------2----2-----0--------0----0------------------------------- -------------------------------------------2-------------------2~0-----2------------------- --0------------------2-----------------------------------2-----------2--------------------- Чтобы мир наш не стал от грехов чёрств и пресен, [звучит также] --------0~2--------------------------------------------------------------------------------- ------3-----3---3-----------3--------------------2-----------------2--------------------- ----0---------0---0-------0----0----2----------2---2------------2---2------------------- ------------------------2---------2----2-----0--------0----0----0-------0---0-------------- --------------------------------------------2----------------2---------------------------- --0------------------2-----------------------------------2----------------2---------------- Знай, течёт свысока, разноцветная большая река, [звучит также] ----------------------------------------------------------------------------------------- -----------5-----------------------------------3------------------------------------------- --------4-----4----------------------------0----0----0----------------------------------- -----5-----------5-----------------------2---------2----2---------------------------------- --3----------------------3-4---------------------------------------------------------- -----------------------------2---------------------------------------------------- Не написанных чьих-то стихов, чьих-то пе се н. (последнее слово "песен" поём уже на проигрыше) Проигрыш (как в начале вступление только без повтора) Шепчет листва, нет людей, нет пробок, В каменных джунглях роса повсюду. Город вздохнул, не заметь, попробуй чуда. Всё просто так не чего-то ради, И сквозь асфальт прорастает семя, Не оценить значит зря потратить время. Припев.



Collapse/Expand
Chords

Collapse/Expand
Annotation

http://youtu.be/jvK-hxDL5zU


Объяснения:
~ - легато, извлекаем звук только на первом ударе, второй возникает, когда палец опускается с увеличенной скоростью на лад
> - глиссандо, палец скользит  от одного лада до другого, извлечение звука только вначале, палец держит струну всё время с одинаковой силой
(2) - струна не играется
3|
2| -  струны играются одновременно, из-за форматирования не удаётся писать цифры точно друг под другом


QR code
All lyrics are property and copyright of their owners. All lyrics provided for educational purposes only.

designed via ChordsVault