Диктант (Михаил Щербаков)

Transcribed by Дмитрий Петренко for Guitar 6 string - Standard (E-A-D-G-B-E) (capo on 2 fret - F#-B-E-A-C#-F#)   .


Вступление = проигрыш = 1 часть окончания:
slide
(1)-------------------------------------|------------------------------------------------
(2)---8---8---8---7---6---5---5---5---5-|--8---8---8---8---7---6---5---5---5---5---5-----
(3)---9---9---9---8---7---5---5---5---5-|--9---9---9---9---8---7---5---5---5---5---5-----
(4)-------------------------------------|------------------------------------------------
(5)-0-------0-------------0-----0-------|--0---------0-------------0---------0-----------
(6)-----0---------0---------0-------0---|--------0---------0-------------0-------0-------

Am6 Профан по всем остальным наукам -
ладно, я не о тех талантах.
К чему к чему, а к дворцовым трюкам
Gm g g# e Am6 ты мог привыкнуть ещё в инфантах.
Расчесть хотя бы азы карьеры
монарх обязан уметь вслепую.
Бросаем всё, принимаем меры.
Gm Садись, записывай, я диктую.
Cm Поскольку аз есмь церемониймейстер,
Gm Cm сиречь действительный магистр, молчи, не спрашивай - чего, чего, чего, чего, чего
Сам чувствуешь, должно быть,
Gm Cm/A вопрос нелеп, ответ - всего, всего...

Gm Bm7b5 Та-дам, та-дам, та-дам...

Am6 Та-дам, та-дам, та-дам...

Проигрыш

Премьер-министра позвать - и в морду.
Пажа казнить, королеву выгнать.
Сыграть с Европой на выход к морю.
Во что не важно, главное выиграть.
Казна грязна? велика забота.
Такие деньги, если подумать,
мы сами в силах отмыть в два счёта.
Но ты не пойдёшь мыть. И я не пойду мыть.
Рабы не мы. Тут есть и помоложе.
Мерзавцев набран полный штат, молчи, не спрашивай - зачем, зачем...
Волк волку не опасен,
наоборот. Так вот - затем, затем...

Та-дам, та-дам, та-дам...
Та-дам, та-дам, та-дам...

Проигрыш

Какой же ты, я не знаю, глупый!
А между прочим, давно за тридцать.
Вели болтливой и мокрогубой
фронде заткнуться или закрыться.
Ползком не вышло, возьмёшь наскоком.
Перед «возьмёшь» поставь запятую.
В особых случаях - я под боком.
Не спи, записывай, я диктую.
Поскольку аз есмь церемониймейстер,
мне этот утренник вести, молчи, не спрашивай - куда, куда...
Чу! слышишь отголоски?
Бинокли зришь? Так вот - туда, туда...

Та-дам, та-дам, та-дам...
Та-дам, та-дам, та-дам...

1 часть окончания

2 часть окончания:


(1)------------------------------5--------------------5---8---5-----------------------
(2)--3--6---------6---------6---------6------6------------5-------------5-----1--------
(3)--4---------7----7-------5-------------5---------------5---------5---------1--------
(4)--0------------0---------------------------------------------------------------------
(5)---------0-----------0---0-------0-----0------0-------------------------------------
(6)-------------------------------------------------------0------0------0-----0--------

(1)--------------------------------------------------------------------------
(2)--------------------------------------------------------------------------
(3)----2-------2------8---7----6----5----5-----5------5---4----4--3---2------
(4)--------------------------------------------------------------------------
(5)----0----------0-----------------0--------------0------------------0------
(6)---------0--------------0----------------0-------------0------------------


(1)------------------------------------------------------------
(2)------------------------------------------------------------
(3)------2------8---7--6---5---5-----5------5---4---3--2-------
(4)------------------------------------------------------------
(5)----------0-------------0-------------0-------------0-------
(6)---0--------------0------------0-------------0--------------




Вступление = проигрыш = 1 часть окончания: slide (1)-------------------------------------|------------------------------------------------ (2)---8---8---8---7---6---5---5---5---5-|--8---8---8---8---7---6---5---5---5---5---5----- (3)---9---9---9---8---7---5---5---5---5-|--9---9---9---9---8---7---5---5---5---5---5----- (4)-------------------------------------|------------------------------------------------ (5)-0-------0-------------0-----0-------|--0---------0-------------0---------0----------- (6)-----0---------0---------0-------0---|--------0---------0-------------0-------0------- Профан по всем остальным наукам - ладно, я не о тех талантах. К чему к чему, а к дворцовым трюкам ты мог привыкнуть ещё в инфантах. Расчесть хотя бы азы карьеры монарх обязан уметь вслепую. Бросаем всё, принимаем меры. Садись, записывай, я диктую. Поскольку аз есмь церемониймейстер, сиречь действительный магистр, молчи, не спрашивай - чего, чего, чего, чего, чего Сам чувствуешь, должно быть, вопрос нелеп, ответ - всего, всего... Та-дам, та-дам, та-дам... Та-дам, та-дам, та-дам... Проигрыш Премьер-министра позвать - и в морду. Пажа казнить, королеву выгнать. Сыграть с Европой на выход к морю. Во что не важно, главное выиграть. Казна грязна? велика забота. Такие деньги, если подумать, мы сами в силах отмыть в два счёта. Но ты не пойдёшь мыть. И я не пойду мыть. Рабы не мы. Тут есть и помоложе. Мерзавцев набран полный штат, молчи, не спрашивай - зачем, зачем... Волк волку не опасен, наоборот. Так вот - затем, затем... Та-дам, та-дам, та-дам... Та-дам, та-дам, та-дам... Проигрыш Какой же ты, я не знаю, глупый! А между прочим, давно за тридцать. Вели болтливой и мокрогубой фронде заткнуться или закрыться. Ползком не вышло, возьмёшь наскоком. Перед «возьмёшь» поставь запятую. В особых случаях - я под боком. Не спи, записывай, я диктую. Поскольку аз есмь церемониймейстер, мне этот утренник вести, молчи, не спрашивай - куда, куда... Чу! слышишь отголоски? Бинокли зришь? Так вот - туда, туда... Та-дам, та-дам, та-дам... Та-дам, та-дам, та-дам... 1 часть окончания 2 часть окончания: (1)------------------------------5--------------------5---8---5----------------------- (2)--3--6---------6---------6---------6------6------------5-------------5-----1-------- (3)--4---------7----7-------5-------------5---------------5---------5---------1-------- (4)--0------------0--------------------------------------------------------------------- (5)---------0-----------0---0-------0-----0------0------------------------------------- (6)-------------------------------------------------------0------0------0-----0-------- (1)-------------------------------------------------------------------------- (2)-------------------------------------------------------------------------- (3)----2-------2------8---7----6----5----5-----5------5---4----4--3---2------ (4)-------------------------------------------------------------------------- (5)----0----------0-----------------0--------------0------------------0------ (6)---------0--------------0----------------0-------------0------------------ (1)------------------------------------------------------------ (2)------------------------------------------------------------ (3)------2------8---7--6---5---5-----5------5---4---3--2------- (4)------------------------------------------------------------ (5)----------0-------------0-------------0-------------0------- (6)---0--------------0------------0-------------0--------------



Collapse/Expand
Chords

QR code
All lyrics are property and copyright of their owners. All lyrics provided for educational purposes only.

designed via ChordsVault