This page can not be rendered without javascript Угловатый город (Дмитрий Огай, Бахыт Кенжеев) | Аккорды и Текст |
Settings Export, print and share

Угловатый город (Дмитрий Огай, Бахыт Кенжеев)

Published by Oleg Spivak for Guitar 6 string - Standard (E-A-D-G-B-E)   .


Bступление:
-----------------------------------------3------------------------
--8-------8---------8-------8------------3------6------4------3---
----10------10--------10------10---------4------------------------
------10-------10--------9-------9-------5--4h5----4h5----4h5-----
-----------------------------------------5------------------------
--10----------------9--------------------3------------------------

Cm Cm6/G Cm Cm6/G Для чего радел, и о ком скорбел
Cm Cm/G Cm6 Cm/G Cm угловатый город – кирпичен, бел,
G7(b5) C#7/G# C#7 Dm7b5 Fm/Ab Dm7b5 G G7/D черен, будто эскиз кубиста?
Gm7b5 C7(b5)/F# Fm Fm(maj7)/C Если лет на двадцать приснится вспять –
G G7/D G# Cm/G там такие звезды взойдут опять
G7(b5) C#7/G# C#7 Dm7b5 Fm/Ab Dm7b5 G над моей страной, среди тьмы и свиста.

Вставка:
E-----3----------3------
B-----4----------0------
G--------4----0-----0---
D-0-3--------1--------0-
A-----------------------
E-----------------------

B(5no3) g G#6 Cm6/G Cm Cm6/G Там без глазый месяц в ночи течет,
и летучим строчкам потерян счет
и полна друзьями моя квартира.
Льется спирт рекой, жаль, закуски нет,
и красавец пригов во цвете лет
произносит опус в защиту мира.

Fm Fm/C Fm Fm/C Если явь одна, то родную речь
D#maj7 D#maj7/A# D#maj7 Cm не продать, не выпить, не сбросить с плеч –
G#6/F G#/C G#6/F A#7(sus4) A7#/F A#7 D#maj7 D#maj7/A# D#maj7 и корысти нет от пути земного

Вставка:
G7(sus4)/D F6(9)/D G7(sus4)/D G7


Fm Fm(maj7)/E Fm/Eb Dm7b5 потому что время бежит в одном
D#maj7 D#maj7/A# D#maj7 G#7 направлении, потому что дом
Dm7b5 Fm/Ab Dm7b5 G7(#5)/F Cm D#dim7/A Cm7/A# Fdim7/B развалившийся не отстроить снова.


Cm Cm6/G Cm Cm/G На прощанье крикнуть: я есть, я был.
Cm Cm/G Cm6 Cm/G Cm Я еще успею. Я вас любил.
Обернуться, сумерки выбирая –
где сердечник Бродский, угрюмства друг,
выпускал треску из холодных рук
в океан морской без конца и края.

И пускай прошел и монгол, и скиф
духоту безмерных глубин морских –
есть на свете бездны еще бездонней,
но для Бога времени нет, и вновь
будто зверь бездомный дрожит любовь,
G Cm будто шар земной меж его ладоней.


Fm/C Fm6(9)/C Fm7 Fm6/C И пускай прошел и монгол, и скиф...


Проигрыш:
E--3-2-3-5--4-5-6--5-6-7----------11-10-8-------8-----------------8---------------------10---8--
B--4-3-4-6--5-6-7--6-7-8---6--------------8-----8-----------8-----8-------------------8--8---8--
G----------------------------7----0-----0-----8---8--7----8-----8---8----0-----7-8-10----8---8--
D--5-4-5-7--6-7-8--7-8-9-----------------------------0--10----10---------9h10-------------------
A-----------------------------------------------------------------------------------------------
E-------------------------------------------8---------------------------------------------------


E-13-11--10--8----------------------6-4--4----------3-----3------3---------3------3----
B-11-11--8---8---11-9----9----------6--------6------------3------3---------3------3----
G-12-12--8---8---8---------8--------6--6-------6--------4------4---------4------4------
D----------------10---10-----10------------------------------3-------------------------
A-(3)-------------------------------4---------------------------------6-------5--------
E-------(3)--------------------------------4----------3--------------------------------


E--6--------9-8------8--------8---------3----------4--3-----3--------3--------
B--6-----6--8-8---11---11-9-----9-------3----------3--3---6---6--4-----4------
G--6--5-6---9-9-------------------10----4-------4--4--4---3--------------5----
D-----------8-------------------------------4-5-------------------------------
A-----------------8---------------------------------------3-------------------
E--6------------------------8-----------3----------3---------------3----------


E--4------4------------------------------3---------------------------
B--6---------6-------------11------9-----3-------6-------4-----3-----
G--6--5-6------6------------------10-----4---------------------------
D------------------10-9-10------10----------4h5-----4h5----4h5-------
A--4---------------8-------------------------------------------------
E-----------------------------8----------3---------------------------


Окончание:
G7 Cm6 E---------------------------------------
B--8-------8---------8-------8----------
G----10------10--------10------10-------
D------10-------10--------9-------9-----
A---------------------------------------
E--10----------------9------------------
Bступление: -----------------------------------------3------------------------ --8-------8---------8-------8------------3------6------4------3--- ----10------10--------10------10---------4------------------------ ------10-------10--------9-------9-------5--4h5----4h5----4h5----- -----------------------------------------5------------------------ --10----------------9--------------------3------------------------ Для чего радел, и о ком скорбел угловатый город – кирпичен, бел, черен, будто эскиз кубиста? Если лет на двадцать приснится вспять – там такие звезды взойдут опять над моей страной, среди тьмы и свиста. Вставка: E-----3----------3------ B-----4----------0------ G--------4----0-----0--- D-0-3--------1--------0- A----------------------- E----------------------- Там без глазый месяц в ночи течет, и летучим строчкам потерян счет и полна друзьями моя квартира. Льется спирт рекой, жаль, закуски нет, и красавец пригов во цвете лет произносит опус в защиту мира. Если явь одна, то родную речь не продать, не выпить, не сбросить с плеч – и корысти нет от пути земного Вставка: потому что время бежит в одном направлении, потому что дом развалившийся не отстроить снова. На прощанье крикнуть: я есть, я был. Я еще успею. Я вас любил. Обернуться, сумерки выбирая – где сердечник Бродский, угрюмства друг, выпускал треску из холодных рук в океан морской без конца и края. И пускай прошел и монгол, и скиф духоту безмерных глубин морских – есть на свете бездны еще бездонней, но для Бога времени нет, и вновь будто зверь бездомный дрожит любовь, будто шар земной меж его ладоней. И пускай прошел и монгол, и скиф... Проигрыш: E--3-2-3-5--4-5-6--5-6-7----------11-10-8-------8-----------------8---------------------10---8-- B--4-3-4-6--5-6-7--6-7-8---6--------------8-----8-----------8-----8-------------------8--8---8-- G----------------------------7----0-----0-----8---8--7----8-----8---8----0-----7-8-10----8---8-- D--5-4-5-7--6-7-8--7-8-9-----------------------------0--10----10---------9h10------------------- A----------------------------------------------------------------------------------------------- E-------------------------------------------8--------------------------------------------------- E-13-11--10--8----------------------6-4--4----------3-----3------3---------3------3---- B-11-11--8---8---11-9----9----------6--------6------------3------3---------3------3---- G-12-12--8---8---8---------8--------6--6-------6--------4------4---------4------4------ D----------------10---10-----10------------------------------3------------------------- A-(3)-------------------------------4---------------------------------6-------5-------- E-------(3)--------------------------------4----------3-------------------------------- E--6--------9-8------8--------8---------3----------4--3-----3--------3-------- B--6-----6--8-8---11---11-9-----9-------3----------3--3---6---6--4-----4------ G--6--5-6---9-9-------------------10----4-------4--4--4---3--------------5---- D-----------8-------------------------------4-5------------------------------- A-----------------8---------------------------------------3------------------- E--6------------------------8-----------3----------3---------------3---------- E--4------4------------------------------3--------------------------- B--6---------6-------------11------9-----3-------6-------4-----3----- G--6--5-6------6------------------10-----4--------------------------- D------------------10-9-10------10----------4h5-----4h5----4h5------- A--4---------------8------------------------------------------------- E-----------------------------8----------3--------------------------- Окончание: E--------------------------------------- B--8-------8---------8-------8---------- G----10------10--------10------10------- D------10-------10--------9-------9----- A--------------------------------------- E--10----------------9------------------




Collapse/Expand
Chords

Collapse/Expand
Annotation

QR code
All lyrics are property and copyright of their owners. All lyrics provided for educational purposes only.  

designed via ChordsVault